SMNnews Forums

SMNnews Forums (http://forums.smnnews.com/index.php)
-   Arsis (http://forums.smnnews.com/forumdisplay.php?f=122)
-   -   Arsis Tabs? (http://forums.smnnews.com/showthread.php?t=81006)

A city aflame 08-10-2005 10:24 PM

Arsis Tabs?
 
Are there any arsis tabs? I found one for "Face of my innocence" but are there any for "Return" or any other tracks?

gore_ridden 08-11-2005 04:14 AM

Re: Arsis Tabs?
 
Quote:

Originally posted by A city aflame
Are there any arsis tabs? I found one for "Face of my innocence" but are there any for "Return" or any other tracks?
You found one? Where?

ShadowsFallen 08-12-2005 11:32 AM

I think I've probably seen the Face of My Innocence tab you were talking about. It was fairly incomplete. I was actually thinking of tabbing some Arsis songs on guitar, so if you want, just let me know and I'll tab some songs for you.

gore_ridden 08-12-2005 11:11 PM

Quote:

Originally posted by ShadowsFallen
I think I've probably seen the Face of My Innocence tab you were talking about. It was fairly incomplete. I was actually thinking of tabbing some Arsis songs on guitar, so if you want, just let me know and I'll tab some songs for you.
You should tab the Face of my Innocence.

ShadowsFallen 08-13-2005 01:40 AM

That would've been one of my first ones. I was planning on doing that one, Wholly Night, and the Sadistic Motives Behind Beravement Letters.

gore_ridden 08-13-2005 01:46 AM

Quote:

Originally posted by ShadowsFallen
That would've been one of my first ones. I was planning on doing that one, Wholly Night, and the Sadistic Motives Behind Beravement Letters.
Oh do Return!

ShadowsFallen 08-13-2005 12:05 PM

Okay, I'll do Return too.

gore_ridden 08-13-2005 12:14 PM

Quote:

Originally posted by ShadowsFallen
Okay, I'll do Return too.
Can I put them up on my webpage when you're done?

A city aflame 08-13-2005 04:32 PM

I did this for return..it's something like this even though this sounds like shit..it's something like this..Btw it's in Standard D


|------------------------------------------------------|
|------------------------------------------------------|
|------------------------------------------------------|
|------------------------------------------------------|
|-[11]-12--------8-11--------7--8-----5--7----7--8-----|
|---------0-0-0-------0-0-0-------0-0------0-------0-0-|
|
| Gtr II
|
|------------------------------------------------------|
|------------------------------------------------------|
|------------------------------------------------------|
|------------------------------------------------------|
|-[14]-15-------12-14-------11-12-----8-11---11-12-----|
|---------0-0-0-------0-0-0-------0-0------0-------0-0-|




|------------------------------|
|------------------------------|
|------------------------------|
|------------------------------|
|-3-5-------5--7--------7--8---|
|-----0-0-0------0-0-0---------|
|
|
|
|------------------------------|
|------------------------------|
|------------------------------|
|------------------------------|
|-7-8-------8-11-------11-12---|
|-----0-0-0------0-0-0---------|

Alex 08-19-2005 07:07 PM

Quote:

Originally posted by A city aflame
I did this for return..it's something like this even though this sounds like shit..it's something like this..Btw it's in Standard D


|------------------------------------------------------|
|------------------------------------------------------|
|------------------------------------------------------|
|------------------------------------------------------|
|-[11]-12--------8-11--------7--8-----5--7----7--8-----|
|---------0-0-0-------0-0-0-------0-0------0-------0-0-|
|
| Gtr II
|
|------------------------------------------------------|
|------------------------------------------------------|
|------------------------------------------------------|
|------------------------------------------------------|
|-[14]-15-------12-14-------11-12-----8-11---11-12-----|
|---------0-0-0-------0-0-0-------0-0------0-------0-0-|




|------------------------------|
|------------------------------|
|------------------------------|
|------------------------------|
|-3-5-------5--7--------7--8---|
|-----0-0-0------0-0-0---------|
|
|
|
|------------------------------|
|------------------------------|
|------------------------------|
|------------------------------|
|-7-8-------8-11-------11-12---|
|-----0-0-0------0-0-0---------|

Thats pretty good..not trying to sound like an as but Im pretty sure they tune to drop C. Btw what kind of equip. does Jim use? I emailed him once and never got a reply. I seen you guys the next day after being screwed out of the Murderfest in Houston and I thought I saw him using a Rocktron Chameleon but wasnt sure. That was an amazing show but a horrible turnout

A city aflame 08-20-2005 02:43 AM

They use drop c on some songs and standard D on others..I read this somewhere I forgot where though.

Alex 08-20-2005 04:39 AM

thats weird because when I saw them they played the entire cd except for one song on dropc guitars and I know that return was done on dropc guitar

A city aflame 09-04-2005 01:15 AM

Powertab would be nice.

ShadowsFallen 09-04-2005 12:39 PM

Alright then. It may take a bit longer since I suck at using powertab.

Man, this song is hard. :( I don't know what the hell is going on in the intro. It sounds like D tuning, too.

A city aflame 09-05-2005 07:32 PM

look at my tab dude thats what I got..

ShadowsFallen 09-05-2005 08:09 PM

It looks pretty good to me. I may use it if I can't really figure it out. What do the brackets mean? I've seen them used many different ways.

Arucard 09-08-2005 12:17 PM

I would love one for the melodic breakdown/chorus bit in Wholly Night. The solo is killer.

A city aflame 09-08-2005 06:35 PM

Quote:

Originally Posted by A city aflame
look at my tab dude thats what I got..

Use it in the tab if ya must..but umm The brackets are pinch harmonics/harmonics all those notes are pinch harmonics if you listen to the song closely..


All times are GMT -4. The time now is 01:14 PM.

Powered by vBulletin® Version 3.8.4
Copyright ©2000 - 2020, Jelsoft Enterprises Ltd.
SMNnews.com: 2002 -