SMNnews Forums

SMNnews Forums (http://forums.smnnews.com/index.php)
-   Spawn of Possession (http://forums.smnnews.com/forumdisplay.php?f=211)
-   -   Tab Book (http://forums.smnnews.com/showthread.php?t=145203)

Pwnsauce 12-09-2006 03:06 PM

Tab Book
 
When will it be released?!!

Vriend 12-10-2006 02:25 PM

Lol, will it ever be released?

Suicide Machine 12-10-2006 06:34 PM

Will anybody be able to play it?

AvantHarde 12-10-2006 08:19 PM

No.

Suicide Machine 12-11-2006 10:42 AM

Exactly.

Kris 12-11-2006 12:22 PM

Quote:

Originally Posted by Vriend
Lol, will it ever be released?

hahaha, yeah man, only time will tell (large amounts of time)

UncleDamfee 12-12-2006 04:05 PM

tabs would be the ultimate christmas present

bryzz 12-12-2006 06:24 PM

im going to put the tabs on a website in powertab format soon, i hope. but it want be any solos in them. just pick a scale that fits to the music and play it as fast as possible.


here is a piece of Render exported to ASCII, so you know the tabs exists hehe.
it looks weird because its the wrong font.

#----------------------------------PLEASE NOTE---------------------------------#
#This file is the author's own work and represents their interpretation of the #
#song. You may only use this file for private study, scholarship, or research. #
#------------------------------------------------------------------------------#

RENDER MY PRAY
As recorded by Spawn of Possession
(From the 2006 Album NOCTAMBULANT)


Transcribed by Bryssling

Words by Röndum
Music by Bryssling, Röndum
Arranged by Bryssling


Gtr I (B E A D F# B) - 'Bryssling'
Gtr II (B E A D G B E) - 'Karlsson'


Introduction (Riff 1)
4/4 4/4
Gtr I
PM--| PM--| PM-----| PM PM| PM
|-3-| |-3-|
E S S S E E E S S S E E S S S S S S S S S S S S S S S S
|------------------------------|-----------------------------------------|
|------------------------------|-------------------------8p7-11----10----|
|------------------------------|-----------------------------------------|
|-9--------9-10-9---------9-10-|----------13----12---8-7--------12----10-|
|------------------------------|---10-9-8----10----9---------------------|
|-7-10-8-5-7--8-7-10-8-5--7--8-|-7---------------------------------------|
|
| Gtr II
| PM--| PM--| PM-----| PM PM| PM
| |-3-| |-3-|
| E S S S E E E S S S E E S S S S S S S S S S S S S S S S
|------------------------------|-----------------------------------------|
|------------------------------|-----------------------------------------|
|------------------------------|-----------------------------------------|
|------------------------12-13-|-------------------------9p8-------------|
|-9--------9-10-9--------------|----8-7-6--9-----9---------------------7-|
|------------------------10-11-|-6------------6----5-9-8-----10-----9----|
|-7-10-8-5-7--8-7-10-8-5-------|---------------------------------6-------|


PM--------------| PM---| PM PM
S S S S T T S E T T S E S S S S
|----------------------------------------------|
|---------------------------------7------------|
|---------------------8--8--7--5-------8---5---|
|------------10--9-7--------------4------------|
|---------------------6-------------6----3-----|
|--7--8--7-6-----------------------------------|
|
| PM--------------| PM---| PM PM
| S S S S T T S E T T S E S S S S
|----------------------------------------------|
|--------------------11----------14------------|
|----------------------------------------------|
|------------12-11-9--8-15-14-12-11------------|
|-------------------------------------10---7---|
|----------------------------------------------|
|-10-11-10-9------------------------7----4-----|


9/8
|-3-|
S S S E S S S S E S E S +Q
|------------------------7-7-(7)-------||
|--------------------------------------||
|-------7--8---------------------------||
|-0h6p5----------------8---------------||
|------------6-------------------------||
|---------------8-5--------------------||
| Q Q E Q Q
|
|----------------------------------------
| |-3-|
| S S S E S S S S Q. S E S
|--------------------------------------||
|--------------------------------18-18-||
|--------------------------------------||
|----------------------------16--------||
|---------10-9-------------------------||
|-------8------10-7--------------------||
|-6h8p7--------------------------------||
Q Q Q. Q


Riff 2 - Verse 1
4/4
PM| PM| PM| PM| PM| PM|
E E S S S S E Q E S S E S S S S S S S S S S S S
|------------7---7--------------------|------------7---7-------------------|
|--------------0----------------------|--------------0------------7\6------|
|-------------------------------------|------------------6-/7-----7\6-6-6--|
|-6-\5-----8-------6-\5---------------|-6-\5-----8-------8-/9-9-9----------|
|---------------------------1h2p1-----|------------------------------------|
|-4-\3-3-3---------4-\3-3-3-------3-2-|-4-\3-3-3---------------------------|
| S S S S Q S S S S S S S S S S S S S Q H
| |-3-|
|
|------PM| PMPM PM| PMPM PM| PM|
| S S S S S S S S S S S S E E S S S S S S S S S S S S S S S S
|-------------------------------------|------------------------------------|
|------------7---7--------------------|------------7---7-------------------|
|--------------0----------------------|--------------0---------------------|
|-------------------------------------|------------------------------------|
|-9-\8-----8-------9-\8---------------|-9-\8-----8----------------8S7------|
|---------------------------4h5p4-----|------------------8-/9-----9S8-8-8--|
|-7-\6-6-6---------7-\6-6-6-------6-7-|-7-\6-6-6---------6-/7-7-7----------|
S S S S Q S S S S S S S S S S S S S Q H
|-3-|

Pwnsauce 12-12-2006 09:06 PM

Thanks man. Any idea when you might have them completed? It's really cool that you're just going to put them on the site for free.

Spew 12-13-2006 12:40 AM

http://www.riversofgore.com/spawnofindex.htm

modern death 12-14-2006 08:19 PM

They've had the same tabs there forever.

Djeez 12-14-2006 08:35 PM

Quote:

Originally Posted by ten_second_infinity
They've had the same tabs there forever.

What would be the point of making more when we know official are coming for free?

execra 01-05-2007 03:01 PM

thanks for the official shit bryzz!! can't wait for the tabs

SYL 01-09-2007 05:31 AM

Quote:

Originally Posted by execra
thanks for the official shit bryzz!! can't wait for the tabs

:emot-nod:

Disincarnate 01-11-2007 01:16 PM

Quote:

Originally Posted by Spew


+1

Vriend 02-02-2007 06:50 PM

Quote:

Originally Posted by bryzz (Post 2135119)
im going to put the tabs on a website in powertab format soon, i hope. but it want be any solos in them. just pick a scale that fits to the music and play it as fast as possible.


here is a piece of Render exported to ASCII, so you know the tabs exists hehe.
it looks weird because its the wrong font.

#----------------------------------PLEASE NOTE---------------------------------#
#This file is the author's own work and represents their interpretation of the #
#song. You may only use this file for private study, scholarship, or research. #
#------------------------------------------------------------------------------#

RENDER MY PRAY
As recorded by Spawn of Possession
(From the 2006 Album NOCTAMBULANT)


Transcribed by Bryssling

Words by Röndum
Music by Bryssling, Röndum
Arranged by Bryssling


Gtr I (B E A D F# B) - 'Bryssling'
Gtr II (B E A D G B E) - 'Karlsson'


Introduction (Riff 1)
4/4 4/4
Gtr I
PM--| PM--| PM-----| PM PM| PM
|-3-| |-3-|
E S S S E E E S S S E E S S S S S S S S S S S S S S S S
|------------------------------|-----------------------------------------|
|------------------------------|-------------------------8p7-11----10----|
|------------------------------|-----------------------------------------|
|-9--------9-10-9---------9-10-|----------13----12---8-7--------12----10-|
|------------------------------|---10-9-8----10----9---------------------|
|-7-10-8-5-7--8-7-10-8-5--7--8-|-7---------------------------------------|
|
| Gtr II
| PM--| PM--| PM-----| PM PM| PM
| |-3-| |-3-|
| E S S S E E E S S S E E S S S S S S S S S S S S S S S S
|------------------------------|-----------------------------------------|
|------------------------------|-----------------------------------------|
|------------------------------|-----------------------------------------|
|------------------------12-13-|-------------------------9p8-------------|
|-9--------9-10-9--------------|----8-7-6--9-----9---------------------7-|
|------------------------10-11-|-6------------6----5-9-8-----10-----9----|
|-7-10-8-5-7--8-7-10-8-5-------|---------------------------------6-------|


PM--------------| PM---| PM PM
S S S S T T S E T T S E S S S S
|----------------------------------------------|
|---------------------------------7------------|
|---------------------8--8--7--5-------8---5---|
|------------10--9-7--------------4------------|
|---------------------6-------------6----3-----|
|--7--8--7-6-----------------------------------|
|
| PM--------------| PM---| PM PM
| S S S S T T S E T T S E S S S S
|----------------------------------------------|
|--------------------11----------14------------|
|----------------------------------------------|
|------------12-11-9--8-15-14-12-11------------|
|-------------------------------------10---7---|
|----------------------------------------------|
|-10-11-10-9------------------------7----4-----|


9/8
|-3-|
S S S E S S S S E S E S +Q
|------------------------7-7-(7)-------||
|--------------------------------------||
|-------7--8---------------------------||
|-0h6p5----------------8---------------||
|------------6-------------------------||
|---------------8-5--------------------||
| Q Q E Q Q
|
|----------------------------------------
| |-3-|
| S S S E S S S S Q. S E S
|--------------------------------------||
|--------------------------------18-18-||
|--------------------------------------||
|----------------------------16--------||
|---------10-9-------------------------||
|-------8------10-7--------------------||
|-6h8p7--------------------------------||
Q Q Q. Q


Riff 2 - Verse 1
4/4
PM| PM| PM| PM| PM| PM|
E E S S S S E Q E S S E S S S S S S S S S S S S
|------------7---7--------------------|------------7---7-------------------|
|--------------0----------------------|--------------0------------7\6------|
|-------------------------------------|------------------6-/7-----7\6-6-6--|
|-6-\5-----8-------6-\5---------------|-6-\5-----8-------8-/9-9-9----------|
|---------------------------1h2p1-----|------------------------------------|
|-4-\3-3-3---------4-\3-3-3-------3-2-|-4-\3-3-3---------------------------|
| S S S S Q S S S S S S S S S S S S S Q H
| |-3-|
|
|------PM| PMPM PM| PMPM PM| PM|
| S S S S S S S S S S S S E E S S S S S S S S S S S S S S S S
|-------------------------------------|------------------------------------|
|------------7---7--------------------|------------7---7-------------------|
|--------------0----------------------|--------------0---------------------|
|-------------------------------------|------------------------------------|
|-9-\8-----8-------9-\8---------------|-9-\8-----8----------------8S7------|
|---------------------------4h5p4-----|------------------8-/9-----9S8-8-8--|
|-7-\6-6-6---------7-\6-6-6-------6-7-|-7-\6-6-6---------6-/7-7-7----------|
S S S S Q S S S S S S S S S S S S S Q H
|-3-|

Now I have to decrypt the bassline.
Thanks anyway.

Cloaca 02-12-2007 07:29 AM

Scorched Tab
 
Djeez and I have done a tab for Scorched. Looking forward to seeing an official one.

GUITAR PRO 5

ACROBAT PDF FILE

Djeez 02-12-2007 07:36 PM

Just passing by to say I have the first minute of Church (Bryzz part)

UncleDamfee 02-12-2007 10:41 PM

Quote:

Originally Posted by Djeez (Post 2223743)
Just passing by to say I have the first minute of Church (Bryzz part)

please post, ive been dying to learn that song since i saw the music video on youtube. thanks!

belphegor79 02-13-2007 01:55 AM

Wow, what a cool guy to even take the time to try and help us learn the songs like that. I'm amazed how people even get that good though.

bryzz 02-13-2007 07:26 AM

Quote:

Originally Posted by Cloaca (Post 2222837)
Djeez and I have done a tab for Scorched. Looking forward to seeing an official one.

GUITAR PRO 5

ACROBAT PDF FILE

amazing job you have done :D

Suicide Machine 02-13-2007 11:41 AM

The world needs! a Hidden in Flesh tab.

Pwnsauce 02-13-2007 06:07 PM

Thanks so much Cloaca!

Manolito Mystiq 02-13-2007 06:19 PM

I'd be willing to transcribe the piece, even though I've never heard of the song, or the band. I'm just a guy from the Dream Theater forums.

Mind that I don't figuring it out with my guitar tabwise, but notationwise. I sometimes feel the way the original guitarist is playing it, doesn't need to be the only 'true' way, but that's just me.

EDIT: Oh, it's already done, never mind.

InvoluntarySlaughter 02-13-2007 09:04 PM

Quote:

Originally Posted by Suicide Machine (Post 2224827)
The world needs! a Hidden in Flesh tab.

Word.

Djeez 02-14-2007 12:36 AM

Quote:

Originally Posted by Suicide Machine (Post 2224827)
The world needs! a Hidden in Flesh tab.

Too late, Church is the one in progression right now.

Cloaca 02-14-2007 07:22 AM

Keep it up cunt. I'm thinking of having a go at another song... probably off Noctambulant.

Thanks a lot Jonas!

modern death 02-14-2007 01:04 PM

Please, Cloaca.. if you ever loved me.. you'd do another. Definitely off of Noctambulant... like... Lash by Lash ;)

Suicide Machine 02-14-2007 01:20 PM

Quote:

Originally Posted by Djeez (Post 2226263)
Too late, Church is the one in progression right now.

Ah well, that's just as good.

The Scorched tab is great btw, but 310 bpm, that is totally retarded (in a good and brutal way of course).

Pwnsauce 02-14-2007 10:30 PM

Lash by Lash would be awesome


All times are GMT -4. The time now is 06:45 PM.

Powered by vBulletin® Version 3.8.4
Copyright ©2000 - 2020, Jelsoft Enterprises Ltd.
SMNnews.com: 2002 -