Thread: Tabs
View Single Post
Old 06-28-2009, 09:46 PM   #23
Claude
Registered User
 
Claude's Avatar
 
Join Date: Oct 2005
Location: montreal
Posts: 1,391
Rep Power: 0
Claude is an unknown quantity at this point
So I was working on a Skyless tab and was a full minute into it; but then I saw them live yesterday and noticed I was completely wrong. Damn, back to the drawing board I go! Although from the sound of Aetheral on their myspace, I'm pretty sure the new songs will be easier to tab given the mix!

Pat, a lot of times I hear duplet chords during some of your really fast, speed picked sections (usually in thirds). Do Matt and yourself split that chord and speed pick a single note or you just bludgeon through the entire chord?

Example, do you do this:

|--------------
|--------------
|--------------
|-2-2-2-2-2-2-
|-3-3-3-3-3-3-
|--------------

or this:

|--------------
|--------------
|--------------
|-2-2-2-2-2-2-
|--------------
|--------------

|--------------
|--------------
|--------------
|--------------
|-3-3-3-3-3-3-
|--------------

Last edited by Claude; 06-29-2009 at 12:36 PM.
Claude is offline   Reply With Quote