View Single Post
Old 07-26-2012, 06:38 PM   #159
Works0fheart
Registered User
 
Works0fheart's Avatar
 
Join Date: Jul 2012
Posts: 1,572
Rep Power: 9 Works0fheart beat up jewski


Not sure how you guys feel about AAL, but Tosin has phenomenal technique. I've been trying to learn this for weeks though (The double thump) on guitar. I don't own an 8 string however and it makes it much harder because the strings aren't as thick. I was hoping maybe some of you bass players out there or even guitar players that know how to do this might have some advice for me.

I can only do 2 note groups of it right now, but I would like to expand to the 3, 4, 5 note groups and so on. It's just odd to me how he appears to make almost no movement with his other 4 fingers but he is sounding the notes so quickly. When I try to do it my fingers aren't tucked under my hand that much and doing that feels awkward to me. It might be because I play in classical position (with my guitar upright) so that may affect it a bit but I wouldn't think so since classical players use generally the same technique.



Oh, and here's my contribution to some arpeggios for people. The first set is a Buckethead/Jason Becker style set of sweeps, where the next area is similar to something used by Frank Gambale and the last is like Jason Beckers yet again. Enjoy, and hopefully this thread will actually pick up again.

Quote:
D||----------------------7--10--|--7-------------------------|
A||------------------10---------|-----10---------------------|
F||---------------9-------------|---------9------------------|
C||------------7----------------|------------7---------------|
G||---------9-------------------|---------------9------------|
D||--7--10----------------------|------------------10--7-----|


E E E E E E E E E E E E E E E E
------------------------8--12--|--8---------------------------|
--------------------12---------|-----12-----------------------|
----------------11-------------|---------11-------------------|
-------------9-----------------|-------------9----------------|
---------10--------------------|----------------10------------|
--8--12------------------------|--------------------12--8-----|


E E E E E E E E E E E E E E E E
--------------------------12--15--|--12-----------------------------|
----------------------15----------|------15-------------------------|
------------------14--------------|----------14---------------------|
--------------12------------------|--------------12-----------------|
----------14----------------------|------------------14-------------|
--12--15--------------------------|----------------------15--12-----|


E E E E E E E E E E E E E E E E
--------------------5--8--|--5-----------------------|-----|
-----------------8--------|-----8--------------------|-----|
--------------7-----------|--------7-----------------|-----|
-----------5--------------|-----------5--------------|-----|
--------7-----------------|--------------7-----------|-----|
--5--8--------------------|-----------------8--5-----|-----|


with taps
T
E E E E E E E E E E E E E E E E
----------------------7--10--------|--15p--10--7-------------------|
------------------10---------------|--------------10---------------|
---------------9-------------------|------------------9------------|
------------7----------------------|---------------------7---------|
---------9-------------------------|------------------------9------|
--7--10----------------------------|---------------------------10--|


E E E E E E E E E E E E E E E E
--------------------------|------------------------8--12--|
--------------------------|--------------------12---------|
--------------------------|----------------11-------------|
--------------------------|-------------9-----------------|
--------------------------|---------10--------------------|
--7-----------------------|--8--12------------------------|


T
E E E E E E E E E E E E E E E E
--17p--12p--8---------------------|--------------------------|
---------------12-----------------|--------------------------|
-------------------11-------------|--------------------------|
-----------------------9----------|--------------------------|
--------------------------10------|--------------------------|
------------------------------12--|--8-----------------------|


T
E E E E E E E E E E E E E E E E
--------------------------12--15--|--19p--15p--12----------------------|
----------------------15----------|----------------15------------------|
------------------14--------------|--------------------14--------------|
--------------12------------------|------------------------12----------|
----------14----------------------|----------------------------14------|
--12--15--------------------------|--------------------------------15--|


E E E E E E E E E E E E E E E E
---------------------------|--------------------5--8--|
---------------------------|-----------------8--------|
---------------------------|--------------7-----------|
---------------------------|-----------5--------------|
---------------------------|--------7-----------------|
--12-----------------------|--5--8--------------------|


T
E E E E E E E E E E E E E E E E
--12p--8p--5-----------------|--------------------------|
--------------8--------------|--------------------------|
-----------------7-----------|--------------------------|
--------------------5--------|--------------------------|
-----------------------7-----|--------------------------|
--------------------------8--|--5-----------------------|


E E E E E E E E E E E E E E E E
----------------------------|-----7--12--7---------------|
----------------------------|--8------------8------------|
-------------------------9--|------------------9---------|
------------------9--10-----|---------------------10--9--|
-----------7--10------------|----------------------------|
--8--7--8-------------------|----------------------------|


E E E E E E E E E E E E E E E E
---------------------------|--------------------------|
---------------------------|--------------------------|
---------------------------|-----------------------4--|
---------------------------|-----------------4--5-----|
--10--7--------------------|-----------2--5-----------|
---------8--7--8-----------|--3--2--3-----------------|


E E E E E E E E E E E E E E E E
-----2--5--2--------------|--------------------------|
--3-----------3-----------|--------------------------|
-----------------4--------|--------------------------|
--------------------5--4--|--------------------------|
--------------------------|--5--2--------------------|
--------------------------|--------3--2--3-----------|


E E E E E E E E E E E E E E E E
----------------------------------|------14--17--14--19--14----------|
----------------------------------|--15----------------------15------|
------------------------------16--|------------------------------16--|
----------------------16--17------|----------------------------------|
--------------14--17--------------|----------------------------------|
--15--14--15----------------------|----------------------------------|


E E E E E E E E E E E E E E E E
---------------------------------|-----|--------------------3--7s--|
---------------------------------|-----|-----------------3---------|
---------------------------------|-----|--------------4------------|
--17--16-------------------------|-----|-----------5---------------|
----------17--14-----------------|-----|--------5------------------|
------------------15--14--15-----|-----|--3--7---------------------|


E E E E E E E E E E E E E E E E
--10--5--------------------|-----------5--10s--15--10------|
---------7-----------------|--------7------------------12--|
------------7--------------|-----7-------------------------|
---------------7-----------|--7----------------------------|
------------------9--5--9--|-------------------------------|
---------------------------|-------------------------------|


T
E E E E E E E E E E E E E E E E
----------------------------------|--10--15--19--15--10--------------|
------------------------------12--|----------------------12----------|
--12----------------------12------|--------------------------12------|
------12--------------12----------|------------------------------12--|
----------14--10--14--------------|----------------------------------|
----------------------------------|----------------------------------|


E E E E E E E E
------------------------------|-----||
------------------------------|-----||
------------------------------|-----||
------------------------------|-----||
--14--10----------------------|-----||
----------12~--L--L--L--L--L--|-----||

Last edited by Works0fheart; 07-26-2012 at 06:41 PM..
Works0fheart is offline   Reply With Quote