Thread: Arsis Tabs?
View Single Post
Old 08-13-2005, 04:32 PM   #9
A city aflame
Registered User
 
A city aflame's Avatar
 
Join Date: Jun 2005
Location: New York
Posts: 21
Rep Power: 0
A city aflame slam gang member
I did this for return..it's something like this even though this sounds like shit..it's something like this..Btw it's in Standard D


|------------------------------------------------------|
|------------------------------------------------------|
|------------------------------------------------------|
|------------------------------------------------------|
|-[11]-12--------8-11--------7--8-----5--7----7--8-----|
|---------0-0-0-------0-0-0-------0-0------0-------0-0-|
|
| Gtr II
|
|------------------------------------------------------|
|------------------------------------------------------|
|------------------------------------------------------|
|------------------------------------------------------|
|-[14]-15-------12-14-------11-12-----8-11---11-12-----|
|---------0-0-0-------0-0-0-------0-0------0-------0-0-|




|------------------------------|
|------------------------------|
|------------------------------|
|------------------------------|
|-3-5-------5--7--------7--8---|
|-----0-0-0------0-0-0---------|
|
|
|
|------------------------------|
|------------------------------|
|------------------------------|
|------------------------------|
|-7-8-------8-11-------11-12---|
|-----0-0-0------0-0-0---------|
A city aflame is offline   Reply With Quote