View Single Post
Old 03-24-2008, 01:12 PM   #131
Iceman350
Molerator
 
Iceman350's Avatar
 
Join Date: Jan 2008
Location: UK
Posts: 493
Rep Power: 12 Iceman350 slam gang member
This thread seems like a really cool idea.
Heres some of my favorite riffs, scales stuff...


Code:
A riff from cruelty incarnate, by psycroptic
E||-----------------------------------------------------------------|
B||-----------------------------------------------------------------|
G||-----------------------------------------------------------------|
D||-------------------------------------------------5-4-7-5-4-------|
A||---------1-4-1-----5-4-1-----------------1-5-3-6-----------6-5-3-|
D||-0-1-4-5-------5-4-------5-4-1-0-0-1-4-5-------------------------|


E||-----------------------------------------------------------------||
B||----------------------------------------------------------------.||
G||-----------------------------------------------------------------||
D||-------------------------------------------------0h1h4/5-4h5h7/8.||
A||---------1-4-1-----5-4-1-----------------1-5-3-6-----------------||
D||-0-1-4-5-------5-4-------5-4-1-0-0-1-4-5-------------------------||



The Byzantine scale, in C.
|---------------------------------
|--------------------------------9-12-13-
|------------------------9-10-12-------
|----------------9-10-11---------------
|--------8-10-11-----------------------
|-8-9-12------------------------------



Random lick i made up, sounds bluesy at the start then moves to pentatonic sounding then im not sure what the last part sounds like
|-------------------------------------------------------------------
|-12-11-9----11-9-------9-------------------------------------------
|---------12------12-11---12-11-9-12-11-9----11-9------9------------
|-----------------------------------------11------11-9---11-9-8-9---
|-------------------------------------------------------------------
|-------------------------------------------------------------------

I feel so sucky, all you guys are sweeping and shit, all my chops went to shit, i dont practise as much as i should. Heres my shred lick, Its in 5s and its a wide stretch tapping lick in A minor.

|-12-5-7-8-10-|13-10-8-7-5-- repeat
|-------------|-------------
|-------------|-------------
|-------------|-------------
|-------------|-------------
|-------------|-------------
Iceman350 is offline   Reply With Quote