Thread: GS Tabs Please.
View Single Post
Old 11-18-2007, 09:56 AM   #12
DeadNote
Registered User
 
DeadNote's Avatar
 
Join Date: Jul 2005
Location: Lexington
Posts: 170
Rep Power: 15
DeadNote slam gang member
A-----------------------
E---2---0-2-3--3-2-3---
A---2---0-2-3----------

A---------------- 5---------
E---2---0-2-6--3-3---------
A---2---0-2-6--3-----------


A-----------------------
E---2---0-2-3--3-2-3---
A---2---0-2-3----------


A---------------- 5---------
E---2---0-2-6--3-3---------
A---2---0-2-6--3-----------


A------------------------ A --------------------------
E---2--2----------------- E -------------8-7----------
A---2----3--5-3--6-5--X3 A ----(6)--(8)--------------

( ) = Tremolo picking

Well thats my best guess.
P.s i couldn't find a way to make it look good but in the first riff the 3 2 3 im pretty sure its a hammer on from 2 into 3.
DeadNote is offline   Reply With Quote