SMNnews Forums

Go Back   SMNnews Forums > Official Band Forums > Disavowed

Disavowed Website


Get Metallica T-Shirts & Merch from Rock.com


Reply
 
Thread Tools Rating: Thread Rating: 3 votes, 5.00 average. Display Modes
Old 06-30-2006, 10:18 AM   #1
Yura
Registered User
 
Yura's Avatar
 
Join Date: Feb 2005
Location: Kiev, Ukraine
Posts: 68
Rep Power: 15 Yura slam gang member
!!!Disavowed guitar tabs

Hi Rob!!! please ask guitar dudes to correct mistakes in my tabs!!!
Yura is offline   Reply With Quote
Old 06-30-2006, 10:20 AM   #2
Yura
Registered User
 
Yura's Avatar
 
Join Date: Feb 2005
Location: Kiev, Ukraine
Posts: 68
Rep Power: 15 Yura slam gang member
Code:
Song : RHIZOME
Band : DISAVOWED
ALBUM : PERCEPTIVE DECEPTION
Copyright Unique Leader Records 2001

Version 2.0 (January'06)
Transcribed by : Yura Kowalchuk
       contact : yura_kowalchuk@mail.ru
URL: [www.blood-scrapes.nm.ru]

::TABULATURE LEGEND::
 " - tremolo             h - hammer on           
 ~ - vibrato             \ - slide down
 p - pull off            / - slide down
 tr - trill              ^ - pinch harmonics     
 = - sustained note      b - bend string         
 p.m. - palm muting      t - tapping  

Tuning is D [D, G, C, F, A, D]

[Riff 1]
|--------------------------------------|--------------------------------------|
|--------------------------------------|--------------------------------------|
|--------------------------------------|--------------------------------------|
|---------------------------7p5-8p5----|---------------------------7p5-8p5----|
|---7-----7---8-7---7---------------5~-|---7-----7---8-7---7---------------8~-|
|-0---0-6---0-----0---0-6-5------------|-0---0-6---0-----0---0-6-5------------|
tr.........................             tr........................

[Riff 2 (x2)]
|---------------------------------|---------------------------------|
|---------------------------------|---------------------------------|
|---------------------------------|---------------------------------|
|---------------------------------|-----------------5h4-------------|
|-----3h4-----3h4-----3h4-----4h5-|-----3h4-----3h4-------------3h4-|
|-0-2-----0-2-----0-2-----0-3-----|-0-2-----0-2---------6p5-0-2-----|
  . .     . .     . .     . .       . .     . .             . .

[RIFF 1 with ending 1]

[ending 1]
|-----------------|
|-----------------|
|-----------------|
|-----------------|
|---7-----------3-|
|-0---0-6-5-5---1-|
tr...........   .

[Riff 3 (x2)]
|-----------------|-----------------|
|-----------------|-----------------|
|-----------------|-----------------|
|-----------3-----|-----------------|
|---2---------2-3-|---2-------3-----|
|-1---1-2-1-------|-1---1-2-2---2-3-|
tr.................................

[Riff 4 (x2)]
|-----------------|-----------------|
|-----------------|-----------------|
|-----------------|-----------------|
|-----------------|-----------------|
|-3-------4-------|-3---------3-4---|
|---1-4-3---2-5-4-|---1-4-3-2-----2-|
tr.................................

[RIFF 3 (x2)]

[Riff 5 (x5)]
|-----------------|-----------------|
|-----------------|-----------------|
|-----------------|-----------------|
|---4-5---4-5-----|---4-5---4-5-6-5-|
|-3-2-3-3-2-3-3-2-|-3-2-3-3-2-3-4-3-|
|-1-----1-----1-0-|-1-----1---------|
  . . . . . . . .   . . . . . . . .

[Riff 6 (x4)]
|---------------|-----------------|
|---------------|-----------------|
|---------------|-----------------|
|----------2"3"-|--------2"3"6"5"-|
|---------------|-----------------|
|-0"....-1"-----|-0"..-1"---------|

[RIFF 5 (x2)] [RIFF 6] [RIFF 6 (1 BAR ONLY)]

[Outro]
|------------------|
|------------------|
|------------------|
|------------------|
|---4-3-0-3--------|
|-0---------5-4----|
tr.................

[Riff 7 (x2)]
|-----------------------------|-------------------------------|
|-----------------------------|-------------------------------|
|-----------------------------|-------------------------------|
|-------2-3---------2-3-6-5---|-------2-3---------------------|
|-----------------------------|-----------------4-3-0-3-------|
|-1-0-1-----0-1-0-1-----------|-1-0-1-----0-1-0---------5-4---|
tr............................................................

[RIFF 1 (x2)] [RIFF 2 (x2)] [RIFF 1] [RIFF 1 (1 bar)] [RIFF 5 (1 bar)]

[Riff 8 (x3)]
|-----------------------|---------------------------|
|-----------------------|---------------------------|
|-----------------------|---------------------------|
|-----------------------|---------------------------|
|-3---------3-----3/4-3-|-3---------3-----3---------|
|-1-0000-0--1--0--1/2-1-|-1-0000-0--1--0--1--2"....-|
    .... .     .            .... .     .

[RIFF 8 (1 BAR ONLY)]

[BASS OUTRO:]
|--------------------------------|
|-----------------5p4------------|
|-----3h4-----3h4------------3h4-|
|-0-2-----0-2--------6p5-0-2-----|

[RIFF 2 (x2)] [RIFF 5 (x2)] [RIFF 8 (x2)] [RIFF 8 [1 bar only]] 
[outro] [RIFF 7 (x2)] [RIFF 3 (x2)] [RIFF 4 (x2)] [RIFF 3]

[Outro 2]
|-----------------|------------------|
|-----------------|------------------|
|-----------------|------------------|
|-----------3-----|---5p4------------|
|-------2-----2-3-|-3---------4-5--2-|
|-1-2-1---1-------|-1-----6p5-2-3--0-|
tr................  .         . .  .

[RIFF 8 (x3)]
[RIFF 8 [1 bar only]]

[Final Ending:]
|------------------------|
|------------------------|
|------------------------|
|---5p4------------------|
|-3---------4-5---3-2----|
|-1-----6p5-2-3---1-0----|
  .         . .   . .

END OF SONG
Yura is offline   Reply With Quote
Old 06-30-2006, 10:22 AM   #3
Yura
Registered User
 
Yura's Avatar
 
Join Date: Feb 2005
Location: Kiev, Ukraine
Posts: 68
Rep Power: 15 Yura slam gang member
Code:
Song : ABOLITION OF IMPEDIMENT
Band : DISAVOWED
ALBUM : PERCEPTIVE DECEPTION
Copyright Unique Leader Records 2001

Version 2.0 (January'06)
Transcribed by : Yura Kowalchuk
       contact : yura_kowalchuk@mail.ru
URL: [www.blood-scrapes.nm.ru]

::TABULATURE LEGEND::
 " - tremolo             h - hammer on           
 ~ - vibrato             \ - slide down
 p - pull off            / - slide down
 tr - trill              ^ - pinch harmonics     
 = - sustained note      b - bend string         
 p.m. - palm muting      t - tapping  

Tuning is D [D, G, C, F, A, D]

[Part 1 (x2)]
|---------------------------------|---------------------------------
|---------------------------------|---------------------------------
|---------------------------------|---------------------------------
|---------------------3-2---------|---------------------------------
|-------------------------4-3-----|---------------------5-4---------
|-1-3-1-2-2-3-3-4-1-2---------2-3-|-2-3-3-4-1-2-2-3-0-1-----6-5-1-2-
  . . . . . . . . . .         . .   . . . . . . . . . .         . .

---------------------------------|---------------------------------|
---------------------------------|---------------------------------|
---------------------------------|---------------------------------|
---------------------3-2---------|---------------------------------|
-------------------------4-3-----|---------3-2---------5-4---------|
-1-3-1-2-2-3-3-4-1-2---------2-3-|-2-3-3-4-----4-3-0-1-----6-5-1-2-|
 . . . . . . . . . .         . .   . . . .         . .         . .

[Part 2 (x2)]
|--------------------------------|--------------------------------
|--------------------------------|--------------------------------
|--------------------------------|--------------------------------
|---------5----------------------|---------5----------------------
|-4-4-4-4-3--4-4-4-4-4-4-3-3-3-3-|-4-4-4-4-3--4-4-5-5-5-5-3-3-5-5-
|-2-2-2-2-3--2-2-2-2-2-2-1-1-1-1-|-2-2-2-2-3--2-2-3-3-3-3-1-1-3-3-
  . . . .    . . . . . . . . . .   . . . .    . . . . . . . . . .

--------------------------------|---------------------------------|
--------------------------------|---------------------------------|
--------------------------------|---------------------------------|
---------5----------------------|-------------4-4-4-4-------------|
-4-4-4-4-3--4-4-4-4-4-4-2-2-3-3-|-4-4-4-4-5-5-2-2-2-2-4-4-3-3-3-3-|
-2-2-2-2-3--2-2-2-2-2-2-0-0-1-1-|-2-2-2-2-3-3---------2-2-1-1-1-1-|
 . . . .    . . . . . . . . . .   . . . . . . . . . . . . . . . .

[PART 1 (x2)]

[Part 3 (x2)]
|----------------------------------|----------------------------------
|----------------------------------|----------------------------------
|----------------------------------|----------------------------------
|----------------------------------|---------------------44443333-----
|-----4444------------444455554444-|-------------44445555-------------
|-2222----222211112222-------------|-222211112222----------------3333-

----------------------------------|-[ending 1]-----------------------|
----------------------------------|----------------------------------|
----------------------------------|----------------------------------|
----------------------------------|----------------------------------|
-----4444------------55554444-----|-44443333------------44443333-----|
-2222----222211112222--------5555-|---------444433335555--------1111-|

 -[ending 2]-----------------------|
 ----------------------------------|
 ----------------------------------|
 ----------------------------------|
 -44443333------------4444-3-------|
 ---------444433335555-----1-------|
                            .
[PART 2 (x2)]

[Part 4 (x4)]
|----------------------------------|
|----------------------------------|
|----------------------------------|
|----------------------------------|
|------4---3-------5-6------5-6-4--|
|-0000-2-0-1--0000-3-4-0000-3-4-2--|

[Part 5 (x2)]
|-----------------------------------------------------------------|
|-----------------------------------------------------------------|
|-----------------------------------------------------------------|
|-----------------------------------------------------------------|
|-2-3334-2-3332-----------------------4---3-------5-6------5-6-4--|
|-0-1112-0-1110-1h2p1-3h4p3-[x3]-0000-2-0-1--0000-3-4-0000-3-4-2--|
  . .... . ....                   

[Part 6 (x2)]
|-----------------------------------|-------------------------------------
|-----------------------------------|-------------------------------------
|-----------------------------------|-------------------------------------
|-----------------------------------|-------------------------------------
|-----------------4h5p4-------------|-------------------------------------
|-0-2-3-2-0-3-4-3-------5-4-0-4-3-2-|-0-2-3-2-0-3-4-3-0-2-3h4p3-0-2-3h4p3-
  . . . . . . . .       . . . . . .   . . . . . . . . . .       . .

-----------------------------------|-------------------------------------|
-----------------------------------|-------------------------------------|
-----------------------------------|-------------------------------------|
-----------------------------------|-------------------------------------|
-----------------4h5p4-------------|-------------------------------3/4-3-|
-0-2-3-2-0-3-4-3-------5-4-0-4-3-2-|-0-2-1h2p1-4h5p4-0-2-4h5p4-0-2-1/2-1-|
 . . . . . . . .       . . . . . .   . .             . .       . .

[PART 5 ]

[Outro]
|-----------------------------------------------------------------|
|-----------------------------------------------------------------|
|-----------------------------------------------------------------|
|-----------------------------------------------------------------|
|-2-3334-2-3332-----------------------4---3-------5-6------4------|
|-0-1112-0-1110-1h2p1-3h4p3-[x3]-0000-2-0-1--0000-3-4-0000-2------|
  . .... . ....                                            .

[PART 1 (x2)] [PART 3 (x2) with ending 1 only] [PART 2 (x2)] [PART 4 (x2)]
[PART 6] [PART 6 (only 3 bars)]

Ending chord
|-------------|
|-------------|
|-------------|
|-------------|
|-2-----------|
|-0-----------|
  .
END OF SONG
Yura is offline   Reply With Quote
Old 06-30-2006, 10:26 AM   #4
Yura
Registered User
 
Yura's Avatar
 
Join Date: Feb 2005
Location: Kiev, Ukraine
Posts: 68
Rep Power: 15 Yura slam gang member
Code:
Song : UNFOLDING DISPOSITION
Band : DISAVOWED
ALBUM : PERCEPTIVE DECEPTION
Copyright Unique Leader Records 2001

Version 2.0 (March'06)
Transcribed by : Yura Kowalchuk
       contact : yura_kowalchuk@mail.ru
URL: [www.blood-scrapes.nm.ru]

::TABULATURE LEGEND::
 " - tremolo             h - hammer on           
 ~ - vibrato             \ - slide down
 p - pull off            / - slide down
 tr - trill              ^ - pinch harmonics     
 = - sustained note      b - bend string         
 p.m. - palm muting      t - tapping  

Tuning is D [D, G, C, F, A, D]

[Intro]
||-------------------------------------------|
||-------------------------------------------|
||-------------------------------------------|
||-------------------------------------------|
||-6-5-4-3-22222222---------11111111---------|
||-4-3-2-1----------0-1-2-3----------1-2-1-0-|
|  . . . .          . . . .          . . . . |            
||-------------------------------------------|
||-------------------------------------------|
||-------------------------------------------|
||---------4----------------3----------------|
||-6-5-4-3-2--------2-3-4-5-1--------3-4-3-2-|
||-4-3-2-1----------0-1-2-3----------1-2-1-0-|
   . . . . .        . . . . .        . . . .
   
            [Riff 1 (x4)]
----------||----------------------------------------------||
----------||o--------------------------------------------o||
----------||----------------------------------------------||
----------||----------------------------------------------||
-66-5-4-3-||o-22222222---------11111111---------66-5-4-3-o||
-44-3-2-1-||-----------0-1-2-3----------1-2-1-0-44-3-2-1--||
 .. . . . |            . . . .          . . . . .. . . .   |
----------||----------------------------------------------||
----------||o--------------------------------------------o||
----------||----------------------------------------------||
----------||----------------------------------------------||
-66-5-4-3-||o-22222222---------11111111---------66-5-4-3-o||
-44-3-2-1-||-----------0-1-2-3----------1-2-1-0-44-3-2-1--||
 .. . . .              . . . .          . . . . .. . . .

[Riff 2 (x2)]
||-----------------------------------------------|-
||o----------------------------------------------|-
||-----------------------------------------------|-
||-----------------------------------------------|-
||o------------------------------------------^---|-
||--000022221111000022221111000022221111-0-0-1~--|-
                                         . .

-------------------------------------------------||
------------------------------------------------o||
-------------------------------------------------||
-------------------------------------------------||
--------------------------------------3-3-3--3--o||
-000022221111000022221111000022221111-4-4-4--1---||
                                      . .

[RIFF 1 (x3)]

[Outro 1]
||--------------------------------------------||
||--------------------------------------------||
||--------------------------------------------||
||--------------------------------------------||
||-22222222---------11111111---------66-5-4-3-||
||----------0-1-2-3----------1-2-1-0-44-3-2-1-||
|           . . . .          . . . . .. . . .  |
||--------------------------------------------||
||--------------------------------------------||
||--------------------------------------------||
||--------------------------------------------||
||-22222222---------11111111---------6----4---||
||----------0-1-2-3----------1-2-1-0-4----2---||
            . . . .          . . . . .    .     

[Riff 3 (x2)]
||----------------------|------------------------
||o---------------------|------------------------
||----------------------|------------------------
||--6---------5---------|-6----------------------
||o-4---6-7-6-3---5-6-5-|-4---6-7-6-44443333-----
||----0-4-5-4---0-3-4-3-|---0-4-5-4---------4444-
      . . . .   . . . .     . . . .

---------------------|-----------------------||
---------------------|----------------------o||
---------------------|-----------------------||
-6---------5---------|-6---------------------||
-4---6-7-6-3---5-6-5-|-4---6-7-6-44443333-3-o||
---0-4-5-4---0-3-4-3-|---0-4-5-4----------4--||
   . . . .   . . . .     . . . .

[Outro 2]
||-------------------------------------|-
||-------------------------------------|-
||-------------------------------------|-
||-------------------------------------|-
||-4-4-4444-4-4-4444-5-5-5555-5-5-5555-|-
||-2-2------2-2------3-3------3-3------|-
   . .      . .      . .      . .

-|----------------------------------------|-
-|----------------------------------------|-
-|----------------------------------------|-
-|----------------------------------------|-
-|-4-4-4444-4-4-4444-5-5-5555555544442222-|-
-|-2-2------2-2------3-3------------------|-
   . .      . .      . .

-|-------------------------------------|-
-|-------------------------------------|-
-|-------------------------------------|-
-|-------------------------------------|-
-|-4-4-4444-4-4-4444-5-5-5555-5-5-5555-|-
-|-2-2------2-2------3-3------3-3------|-
   . .      . .      . .      . .

-|-----------------------------------||
-|-----------------------------------||
-|-----------------------------------||
-|-----------------------------------||
-|-4-4-4444-4-4-4444-5-5-5555-5-5-4--||
-|-2-2------2-2------3-3------3-3-2--||
   . .      . .      . .      . . .

[RIFF 3 (x2)] [RIFF 1 (x3)]

[Outro 3]
||----------------------------------------------
||----------------------------------------------
||----------------------------------------------
||----------------------------------------------
||-22222222---------11111111--------------------
||----------0-1-2-3----------1-2-1-0-3/...8\...-
|           . . . .          . . . . 
||----------------------------------------------
||----------------------------------------------
||----------------------------------------------
||----------------------------------------------
||-22222222---------11111111--------------------
||----------0-1-2-3----------1-2-1-0-3/...8\...-
            . . . .          . . . . 

-|------------------|------------------------||
-|------------------|------------------------||
-|------------------|------------------------||
-|------------------|------------------------||
-|-33-3-------------|-3--3---------33-3-22-2-||
-|-11-1-------------|-1--1---------11-1-00-0-||
 | .. .             | .  .         .. . .. .  |
-|------------------|------------------------||
-|------------------|------------------------||
-|------------------|------------------------||
-|------------------|------------------------||
-|-33-3-2-3-4-3-2-3-|-33-3-2-33-44-3-2-3-----||
-|-11-1-0-1-2-1-0-1-|-11-1-0-11-22-1-0-1-----||
   .. . . . . . . .   .. . . .. .. . . .

[Riff 4a (x2)]
||-------------------|--------------------|-
||o------------------|--------------------|-
||-------------------|--------------------|-
||-------------------|--------------------|-
||o-33-3-2-3-4-3-2-3-|-33-3-2-33-44-3-2-3-|-
||--11-1-0-1-2-1-0-1-|-11-1-0-11-22-1-0-1-|-
|   .. . . . . . . . | .. . . .. .. . . . |
||-------------------|--------------------|-
||o------------------|--------------------|-
||-------------------|--------------------|-
||-------------------|--------------------|-
||o-33-3-2-3-4-3-2-3-|-33-3-2-33-44-3-2-3-|-
||--11-1-0-1-2-1-0-1-|-11-1-0-11-22-1-0-1-|-
    .. . . . . . . .   .. . . .. .. . . .

-|------------------|-------------------||
-|------------------|------------------o||
-|------------------|-------------------||
-|------------------|---5---------------||
-|-33-3-2-3-4-3-2-3-|-3-3-5-6-5-3-3-3--o||
-|-11-1-0-1-2-1-0-1-|-1-3-3-4-3-4-4-1---||
 |                  |                    |
-|------------------|-------------------||
-|------------------|------------------o||
-|------------------|-------------------||
-|------------------|---5---------------||
-|-33-3-2-3-4-3-2-3-|-3-3-5-6-5-3-3-3--o||
-|-11-1-0-1-2-1-0-1-|-1-3-3-4-3-4-4-1---||

[Riff 4b]
||------------------|----------------------|-
||------------------|----------------------|-
||------------------|----------------------|-
||------------------|----------------------|-
||-33-3-2-3-4-3-2-3-|-33-3-2-33-44-3-2-^---|-
||-11-1-0-1-2-1-0-1-|-11-1-0-11-22-1-0-1~~-|-
   .. . . . . . . .   .. . . .. .. . .

-|------------------|------------------|-
-|------------------|------------------|-
-|------------------|------------------|-
-|------------------|---5--------------|-
-|-33-3-2-3-4-3-2-3-|-3-3-5-6-5-3-3-3--|-
-|-11-1-0-1-2-1-0-1-|-1-3-3-4-3-4-4-1--|-
   .. . . . . . . .   . . . . . 

-|------------------|-----------------------|-
-|------------------|-----------------------|-
-|------------------|-----------------------|-
-|------------------|-----------------------|-
-|-33-3-2-3-4-3-2-3-|-33-3-2-33-44-33-22-33-|-
-|-11-1-0-1-2-1-0-1-|-11-1-0-11-22-11-00-11-|-
   .. . . . . . . .   .. . . .. .. .. .. ..

-|------------------|------------------||
-|------------------|------------------||
-|------------------|------------------||
-|------------------|---5--------------||
-|-33-3-2-3-4-3-2-3-|-3-3-5-6-5-3-3-3--||
-|-11-1-0-1-2-1-0-1-|-1-3-3-4-3-4-4-1--||
   .. . . . . . . .   . . . . . 

[RIFF 2 (x2)]

...
Yura is offline   Reply With Quote
Old 06-30-2006, 10:28 AM   #5
Yura
Registered User
 
Yura's Avatar
 
Join Date: Feb 2005
Location: Kiev, Ukraine
Posts: 68
Rep Power: 15 Yura slam gang member
... continue of 'Unfolding Desposition' tab
Code:
[Riff 5a (x2)]
||---------------------------------------------------|-
||o--------------------------------------------------|-
||---------------------------------------------------|-
||---------------------------------------------------|-
||o-4444--------4444----------------5555----55554444-|-
||------22225555----2222555533336666----3333---------|-
|                                                    |
||---------------------------------------------------|-
||o--------------------------------------------------|-
||---------------------------------------------------|-
||---------------------------------------------------|-
||o-4-4-4444----4-4-4444-----5-5-5555---5-5-5555-----|-
||--2-2---------2-2----------3-3--------3-3----------|-
    . .         . .          . .        . .

---------------------------------------------------||
--------------------------------------------------o||
---------------------------------------------------||
---------------------------------------------------||
-4444--------4444----------------5555555544442222-o||
-----22225555----2222555533336666------------------||
                                                    |
---------------------------------------------------||
--------------------------------------------------o||
---------------------------------------------------||
---------------------------------------------------||
-4-4-4444----4-4-4444-----5-5-5555---5-5-5555-----o||
-2-2---------2-2----------3-3--------3-3-----------||
 . .         . .          . .        . .

[Riff 5b (x2)]
||---------------------------------------------------|-
||o--------------------------------------------------|-
||---------------------------------------------------|-
||---------------------------------------------------|-
||o-4444--------4444----------------5555----55554444-|-
||------22225555----2222555533336666----3333---------|-

---------------------------------------------------||
--------------------------------------------------o||
---------------------------------------------------||
---------------------------------------------------||
-4444--------4444----------------5555555544442222-o||
-----22225555----2222555533336666------------------||

[RIFF 2 (x2)] [RIFF 4a (x2)]

[Outro 3]
||-------------------------------------|-
||-------------------------------------|-
||-------------------------------------|-
||-------------------------------------|-
||-4-4-4444-4-4-4444-5-5-5555-5-5-5555-|-
||-2-2------2-2------3-3------3-3------|-
   . .      . .      . .      . .

-|----------------------------------------||
-|----------------------------------------||
-|----------------------------------------||
-|----------------------------------------||
-|-4-4-4444-4-4-4444-5-5-5555555544442222-||
-|-2-2------2-2------3-3------------------||
   . .      . .      . .

[RIFF 5b]

[Riff 6 (x2)]
||----------------------------|----------------------------||
||o---------------------------|---------------------------o||
||----------------------------|----------------------------||
||----------------------------|----------------------------||
||o-4444-----7-4444-----7-3-4-|-4444-----7-4444-----7-3-4-o||
||-------2-2-5------2-2-5-1-2-|------2-2-5------2-2-5-1-2--||
         . . .      . . . . .        . . .      . . . . .

[RIFF 4a (x2)]

END OF SONG
Yura is offline   Reply With Quote
Old 06-30-2006, 10:43 AM   #6
joeybreed
Registered User
 
joeybreed's Avatar
 
Join Date: Sep 2005
Posts: 298
Rep Power: 15 joeybreed slam gang member
Hey Yura! Doing good work brother!
joeybreed is offline   Reply With Quote
Old 06-30-2006, 11:24 AM   #7
InvoluntarySlaughter
Registered User
 
InvoluntarySlaughter's Avatar
 
Join Date: Jun 2005
Location: Tulare, California
Posts: 3,047
Rep Power: 18 InvoluntarySlaughter slam gang member
Fuck yeah! Good job man.
InvoluntarySlaughter is offline   Reply With Quote
Old 07-01-2006, 11:34 AM   #8
Robbe K
Registered User
 
Robbe K's Avatar
 
Join Date: Jul 2005
Posts: 988
Rep Power: 15 Robbe K beat up jewski
Cool! Thanx bro! The guys will check them out!
Robbe K is offline   Reply With Quote
Old 08-27-2008, 12:01 PM   #9
Vriend
Afro Dog
 
Vriend's Avatar
 
Join Date: Jul 2005
Location: Pancake world
Posts: 16,498
Rep Power: 0 Vriend is luke jaeger
I will try them out sooner or later
Vriend is offline   Reply With Quote
Old 08-13-2010, 08:27 PM   #10
Alan.Darkpath
Registered User
 
Alan.Darkpath's Avatar
 
Join Date: Aug 2010
Location: Indonesia
Posts: 3
Rep Power: 0 Alan.Darkpath slam gang member
Wow, Thanks For Your Idea, It Really Help Me to learn, Thanks
Alan.Darkpath is offline   Reply With Quote
Old 12-11-2010, 02:16 AM   #11
thegrindcorps
Sir Grindsalot
 
thegrindcorps's Avatar
 
Join Date: Dec 2010
Posts: 39
Rep Power: 0 thegrindcorps slam gang member
any one done one of divided by condemn?
thegrindcorps is offline   Reply With Quote
Reply

Bookmarks




Thread Tools
Display Modes Rate This Thread
Rate This Thread:

Posting Rules
You may not post new threads
You may not post replies
You may not post attachments
You may not edit your posts

BB code is On
Smilies are On
[IMG] code is On
HTML code is Off

Forum Jump




All times are GMT -4. The time now is 04:29 AM.

vBulletin skin by: CompleteGFX.com
Powered by vBulletin® Version 3.8.4
Copyright ©2000 - 2019, Jelsoft Enterprises Ltd.
SMNnews.com: 2002 -