SMNnews Forums SMNnews Forums  

Go Back   SMNnews Forums > Official Band Forums > Impaled
Register FAQ Members List Calendar Mark Forums Read

Impaled Website

Reply
 
Thread Tools Rate Thread Display Modes
Old 11-18-2006, 06:45 PM   #1
xgrafcorex
Registered User
 
xgrafcorex's Avatar
 
Join Date: Nov 2006
Location: Yokosuka, Japan
Posts: 12
Rep Power: 0
xgrafcorex slam gang member
flesh and blood tab accuracy?

was wondering how close i was with this tab? not sure if there are two versions at all..but this is the one from choice cuts. thanks.

Quote:
:04 :13 :19
e|-------------------------|---|---------------introb--------------------------|
B|----introa----------------|---|-----------------------------------------------|
G|-------------------------|---|----2------2------2------2------1-----1-----1--|
D|-----------------6-6h7p6|---|-----------------------------------------------|
A|---5-----------5---------|-4-|-----------------------------------------------|
E|-2---1-4h5p4-2-----------|-2-|-22---2-22---2-22---2-22---2-11---1-11--1-11-11|
.. . .. . .. . .. . .. . .. . .. ..

:28 :39
e|---|--------|----------------------------------------------------------------|
B|-^-|--------|----------------------------------------------------------------|
G|-1-|--------|----------------------------------------------------------------|
D|---|-introb-|-----------------------------------------------------11-10h11p10|
A|---|--------|-4-8-9-11-12-11-9-8h9p8---------3-8-9-12-10-8-------------------|
E|---|--------|-2----------------------10-9~10-1-------------9-849p8-----------|


:44
e|--------------------------------------7------------------------------|
B|------------------------------------6---6-9-7-6----------------------|
G|-------------------9-10-9-8-7-6~7-7-------------7--------------------|
D|-------------10-11----------------------------------7-10---7-6-------|
A|-4-8-9-11-12--------------------------------------8------8-----9-8-9-|
E|-2-------------------------------------------------------------------|


:49 1:05 1:13 1:21
e|-part1---|--------|------------------------------|-------|
B|-------^-|-------|------------------------------|-------|
G|-------1-|--------|---2-/6-5~6-----2-/6-5~6-2--|-------|
D|---7-----|-introa-|---------------------------h4-|-part1-|
A|-4-5-3---|-faster-|-4----------444---------------|-------|
E|-2---1---|--------|-2----------222---------------|-------|
. . . . ...

1:37 1:46
e|------------------------------------------|-----------------------------------|
B|-------------------------------------------|-----------------------------------|
G|----part2----------------------------------|-----------------------------------|
D|--------------7777----------7-7-10101010-|-----------------------------------|
A|-4-4-4444-4-4-5555-4-4-4444-5-5--8-8-8-8|9h10p9-8-9-9h10p9-8-9-9h10p9-8-10-9|
E|-2-2-2222-2-2------2-2-2222---------------|-----------------------------------|
. . . .

1:54 2:03
e|------------|-----------------|----------------------------|
B|------------|---------7-------|----------------------------|
G|------------|-----6-7---7-6---|----------------------------|
D|------------|---4-----------7-|------7-----------6-------7-|
A|-9h10p9-8-9-|-----------------|---4----5-8-5-4-7---7-5-8---|
E|------------|-2---------------|-2--------------------------|
. . . . . . . .

2:18 2:26 2:28
e|--------|-----------------------|---------------------------------------|
B|--------|------part3------------|---------------------------------------|
G|--------|-----------------------|------------------11-------------------|
D|-introb-|----4-----7-----6----3-|---------10-11-12----12-11-------------|
A|--------|-----------------------|-9-11-12-------------------12-11-9-11s-|
E|--------|-2-5--5-8---4-7---1-4--|---------------------------------------|
. . . . . . . .

2:30 2:32 2:33 2:35
e|-------|-------------------------|-------|----------------------------------|
B|-------|-----------------------^-|-------|----------------------------------|
G|-------|-------------10h11p10-11-|-------|11--------------------------------|
D|-part2-|-11h12p11-12-------------|-part3-|---12-11-9-11-12-11-9-------------|
A|-------|-------------------------|-------|---------------------12-11-9-8-11s|
E|-------|-------------------------|-------|----------------------------------|


2:37 2:38 2:40 2:40
e|-------|-----------------|---------|-------------------------|
B|-------|-----------------|--gtr1---|-gtr2--------------------|
G|-------|-----------------|---------|-------------------------|
D|-part3-|-----------------|---6-----|-----4-----6-------------|
A|-------|-9-12-11h12p11-8-|-4-4-7-3-|-------4-7-------7-----3-|
E|-------|-----------------|-2---5-1-|-2-5---------5-8---1-4---|
. . . . . . . .

2:48 2:51 3:10 3:12
e|-------|-------------------|---|---------|--------|
B|-------|-------------------|---|---------|--------|
G|-------|-------------------|---|---------|--------|
D|-part2-|--------7------7---|---|-----6-7-|-----4^-|
A|-------|-4-44-4-5-4-44-5-3-|-4-|-5-4-----|-3-4----|
E|-------|-2-22-2---2-22---1-|-2-|---------|-1-2----|
.. .. . .
not really sure on that last note..
edit...not sure why it looks all messed up...i just copied and pasted from this link..but here it is in better shape http://metaltabs.com/tab/11308/

Last edited by xgrafcorex; 11-20-2006 at 06:54 PM.
xgrafcorex is offline   Reply With Quote
Old 11-22-2006, 11:17 PM   #2
sewage666
Moderator
 
sewage666's Avatar
 
Join Date: Dec 2003
Location: Oakland, CA
Posts: 184
Rep Power: 17
sewage666 slam gang member
This is a job for Sean... and even he probably doesn't remember how he played it.
sewage666 is offline   Reply With Quote
Reply

Bookmarks

Thread Tools
Display Modes Rate This Thread
Rate This Thread:

Posting Rules
You may not post new threads
You may not post replies
You may not post attachments
You may not edit your posts

BB code is On
Smilies are On
[IMG] code is On
HTML code is Off

Forum Jump



All times are GMT -4. The time now is 01:40 AM.


Powered by vBulletin® Version 3.8.4
Copyright ©2000 - 2020, Jelsoft Enterprises Ltd.
SMNnews.com: 2002 -